#----------------------------------PLEASE NOTE---------------------------------#
#This file is the author's own work and represents their interpretation of the #
#song. You may only use this file for private study, scholarship, or research. #
#------------------------------------------------------------------------------#
#

Bass Tab for:
Song title: "Under Your Skin"
Artist: Luscious Jackson
Album: "Fever In Fever Out"
Done by (and send all corrections to): Oceanid76@aol.com 

i'm gettin' in
under your skin

(pattern #1)

G-------------------------------------------------------------------------------------------------------------------
D--4-4--4-4--4-4---------------4-4--4-4--4-4---------------4-4--4-4--4-4--------------------------------------------
A--------------------------------------------------------------------------------------2-2--2-2--2-2--2-2--2-2--2-2-
E----------------5-5--5-5--5-5---------------5-5--5-5--5-5---------------5-5--5-5--5-5------------------------------

Verse (pattern #2) x4

G--------1-1-------4-4-4----------
D--1-1-1-----1-1-1----------------
A-----------------------2-2-2-2-2-
E---------------------------------

i got the hungry eye
at a northern spy
i watch your smile
my words they float
in and out of the light
i try to make sense
but it's still a fight

Verse (pattern #3) x4

G----------------------------------
D--1-1-1-1-1-1-1-1-2-2-2-4-4-4-4-4-
A----------------------------------
E----------------------------------

we got a smokey past
where minutes last
it took so long to leave so fast
it might not be sweet
feeling this heat

Chorus (pattern #1) x2 (A-2 picked faster and more often the second time)

lie down in the fire with me
i burn everything frequently
if it don't feel good
when you first get in
wait 'til it gets under your skin
lie down underneath the breeze
can't cool down when you're down with me
if it don't feel good
when you first get in
wait 'til it gets under your skin

(pattern #2) x4

Verse (pattern #2) x4

some deeds done wrong
won't scare me long
i've done a few
maybe one or two
if you want to know
all of my original sins
ask the virgin
she knows where i've been

(pattern #3) x4

if it ain't too far for you to come
and you want to get to know
someone
it might be sweet
feeling this heat

Chorus (pattern #1) x2 (A-2 picked faster and more often the second time)

lie down in the fire with me
i burn everything frequently
if it don't feel good
when you first get in
wait 'til it gets under your skin

(guitar riff/no bass)

Chorus (pattern #1) x1 
but replace the A-2 picking at the end with this:

G----------
D----------
A--2s-4s-6-
E----------