#----------------------------------PLEASE NOTE---------------------------------#
#This file is the author's own work and represents their interpretation of the #
#song. You may only use this file for private study, scholarship, or research. #
#------------------------------------------------------------------------------#
#

Approximate bass tab for:
Song title: "Take A Ride"
Artist: Luscious Jackson
Album: "Fever In Fever Out"
Done by (and send all corrections to): Oceanid76@aol.com

Intro and Verse (pattern #1) repeat throughout verse

G--0-5-----10-12-0-5-----10-
D------0-7-----------0-7----
A---------------------------
E---------------------------

stay low, arrows
echoes of heroes
follow their go
borrow halos
climb high, you might die
or stick around to see the sights
take this, drink that
things will start to look right
get lost in the cost
of living in the deep frost
take a ride from this life 
take a ride from this life

(pattern #2) x4

G--5-7-5-7-5-7-5-7-5-
D--------------------
A--------------------
E--------------------

(pattern #3) x1

G--5-7-5-7-5-7-5-7-5-3-5-3-5-3-5-3-5-3-5-7-5-7-5-7-5-7-5-5-7-5-7-5-7-5-7-
D------------------------------------------------------------------------
A------------------------------------------------------------------------
E------------------------------------------------------------------------

(pattern #1) throughout verse again

can you feel it when it's in the night
i take it in with the morning light
everyday underneath the sky
sing along with the lullaby
can you feel it when we step outside
in the sun standing in the tide
it's a shame when i'm in the game
i forget about why i came
hush hush can i
stop the rush
hush hush i'm 
stuck in the crush
take a ride from this life x4

(pattern #2) x4

(pattern #3) x1

(pattern #1)

take a ride from this life x4

(pattern #2) x8

(pattern #3) x3

live slow, die old x3

(pattern #1) x4

Outro (pattern #5) 

G--0-7-0-0-0-0-7-0-0-0.... pick G-0 till end
D---------------------
A---------------------
E---------------------