#----------------------------------PLEASE NOTE---------------------------------#
#This file is the author's own work and represents their interpretation of the #
#song. You may only use this file for private study, scholarship, or research. #
#------------------------------------------------------------------------------#
#

artist:  Luscious Jackson
song:  LP retreat
album:  Natural Ingredients
tabbed by Lindsay, SuprFrk4@aol.com (email me with any corrections)
guitar:

organ/drums for the verses, no guitar that i can decipher

chorus:
e|--------------------------------------------------------------------------------------|
b|---10--9---------------------10-------------10------------10----------10--10-|
g|-------------9--8--9/10----------9/10----------10--9--------9/10------------|
d|---------------------------------------------------------------------------------------|
a|---------------------------------------------------------------------------------------|
e|---------------------------------------------------------------------------------------|

chorus (continued):
e|-----5---5---------5---5-----|--------------------------------------------------------|
b|-----5---5(4)-----5---5(4)-|--------------10----------10---------------------10-|
g|------------------------------o|----9/10---------9/10--------10--9---9/10------|
d|--------------------------------|--------------------------------------------------------|
a|------------------------------o|--------------------------------------------------------|
e|--------------------------------|--------------------------------------------------------|

 i'm not sure about the second chord of those diads..so corrections would be 
appreciated..)