#----------------------------------PLEASE NOTE---------------------------------#
#This file is the author's own work and represents their interpretation of the #
#song. You may only use this file for private study, scholarship, or research. #
#------------------------------------------------------------------------------#
#

Bass tab for:
Song title: "Keep On Rockin' It"
Artist: Luscious Jackson
From: "In Search Of Manny"
Done by: Oceanid76@aol.com

Intro and Verse (pattern #1) x2

G--9-11-11-11-----14-14-14-14-
D-----------------------------
A-------------9-9-------------
E-----------------------------

till its all over

(pattern #2) x1
G--9-11-11-11-----14-14-14-16-16-16-16-16-16-18-19-18-
D-----------------------------------------------------
A-------------9-9-------------------------------------
E-----------------------------------------------------

(pattern #1) x2

original bone lovers straight from manhattan
keep your butt movin'
keep your hands clappin' 
original one droppin'
we never stoppin'
always got bootee
always keep rockin'

(pattern #2) x1

two ladies who don't care for diamonds and gold
who love the boys when they young or they old
who always got something to say for themselves
who put the high heels back on the shelf

Chorus (pattern #3) x1

G--11-11-11-11-11-11-11-11-11-----------------------------------------------------------------------------------------------------------------
D-----------------------------10-10-10-10-10-10-10-10-10-10-----------------------------------------------------------------------------------
A-----------------------------------------------------------9-9-9-9-9-9-9-9-9-9---------------------9-9-9-9-9-9-9-9-9-9-9---------------------
E-------------------------------------------------------------------------------8-8-8-8-8-8-8-8-8-8-----------------------8-8-8-8-8-8-8-8-8-8-

keep on rockin it 
keep on shockin it
till it's all over
keep on rockin it
keep on shockin it

(pattern #4) x2

G------------------------------------------
D------------------------------------------
A--9-9-9-9-9-9-9-9-9-9-7-7-7-7-7-7-7-7-7-7-
E------------------------------------------

till it's all over
till it's all over

(pattern #1) x2

no family jewels between my legs
my wealth is my brain
my jewels my eggs
my underarm hair is a nice little length
my earwax is few, but this is my strength 

(pattern #2) x1

little boy blue he got plenty of skin
he pull off the callous and put the skin in
he always got something to say for himself
he put the high heels up on the shelf

(pattern #1) x2

be my follower
i won't stay long
i'm just lookin' for your mother's son

(pattern #2) x1

my reality is in your face 
but every man must know his place

(pattern #3) x1

keep on rockin it 
keep on shockin it
till it's all over
keep on rockin it
keep on shockin it

(pattern #4) x2

till it's all over
till it's all over

feel me falling to my knees     (A-7--A-9)
sound of children in the breeze (A-7--A-9)
keeps me down and pulls me out  (end of pattern #2)
my evolution is all around

(pattern #1) x2

be my follower (original bone lovers straight from manhattan)
i won't stay long (keep your butt movin' keep your hands clappin') 
be my follower (original one droppin' we never stoppin') 
i won't stay long (always got bootee always keep rockin') 

(pattern #2) x1

be my follower (two ladies who don't care for diamonds and gold)
i won't stay long (who love the boys when they young or they old) 
he always got something to say for himself
he put the high heels up on the shelf

(pattern #3) x1

keep on rockin it 
keep on shockin it
till it's all over
keep on rockin it
keep on shockin it

(pattern #4) x2

till it's all over
till it's all over

(pattern #1) x2

keep on rockin it 
keep on shockin it
keep on rockin it 
keep on shockin it

(pattern #2) x1

till it's all over