#----------------------------------PLEASE NOTE---------------------------------#
#This file is the author's own work and represents their interpretation of the #
#song. You may only use this file for private study, scholarship, or research. #
#------------------------------------------------------------------------------#
#

Bass tab for:
"Bam Bam" by Luscious Jackson
Off "In Search Of Manny"
Done by Oceanid76@aol.com

(pattern #1) X4

G-------
D-------
A--0-2--
E-------

(pattern #2) X4

G----------------------
D------0-2-3-2-0---0---
A--0-2-----------0---0-
E----------------------

(pattern #3) X1

G-----------------------------------
D---------------------------------0-  
A--0-2-0-2--0-2-0-2--0-2-0-2--0-2---
E-----------------------------------

(pattern #4) X1

G-----------------------------------
D---------------------------------3-  
A--0-2-0-2--0-2-0-2--0-2-0-2--0-2---
E-----------------------------------

(pattern #2) X4

Pick  A-0  X2

(pattern #2) X4

(pattern #3) X1

(pattern #4) X1

(pattern #2) X4

Pick  A-0  X4

(pattern #2) X7

(pattern #1) X2