#----------------------------------PLEASE NOTE---------------------------------#
#This file is the author's own work and represents their interpretation of the #
#song. You may only use this file for private study, scholarship, or research. #
#------------------------------------------------------------------------------#
#

Bass tab for:
"Love is Here" by Luscious Jackson
Off the "Life Less Ordinary" soundtrack
Tabbed by Marieeve Bonnet (oceanid76@aol.com)

Intro (pattern #1) X2

G---------------------------------6--
D--8-8-8-6-6-8-8-6--8-8-8-6-6-8-8----
A------------------------------------
E------------------------------------

(pattern #2) X6

G------------------------------------
D------------------------------------
A---------------------------------4--
E--6-6-6-4-4-6-6-4--6-6-6-4-4-6-6----

i got magical radar that reads you like a book yeah
you got a mystic pen that sends me the message
tests of my strength are pretty much all i know
for the rest of my life i will be climbing somewhere

(pattern #1) X2

climbing
climbing

(pattern #2) X2

somewhere
somewhere

(pattern #3) X1

G---------------
D--6--6s-4--4s--
A---------------
E---------------

but i have no fear
i have no fear coz love is...

(pattern #4) X4

G--------------------------6-6-6-6--
D--8-8-8-8-6-6-6-6-8-8-8-8----------
A-----------------------------------
E-----------------------------------

...here
love is here
love is here
love is here

(pattern #2) X4

did you know that i'm looking at you now 
with a daisy in my hair
roses in my hand
and broken rhythms in disrepair
i hear a danger in the air
for the rest of my life i will be climbing somewhere

(pattern #1) X2

climbing
climbing

(pattern #2) X2

somewhere
somewhere

(pattern #3) X1

but i have no fear
i have no fear coz love is...

(pattern #4) X4

...here
love is here
love is here
love is here

(pattern #5) X8

G------------------8-8-8-8-6-6-6-6--
D--8-8-8-8-6-6-6-6------------------
A-----------------------------------
E-----------------------------------

love is here
love is here
love is here
love is here
love is here (did you know that i'm looking at you now with a daisy in my hair)
love is here (roses in my hand and broken rhythms in disrepair) 
i hear a danger in the air
for the rest of my life i will be climbing somewhere

(pattern #1) X2

climbing
climbing

(pattern #6) X1

G---------------------
D---------------------
A------------------4--
E--4-6-6-6-4-4-6-6----

somewhere.