#----------------------------------PLEASE NOTE---------------------------------#
#This file is the author's own work and represents their interpretation of the #
#song. You may only use this file for private study, scholarship, or research. #
#------------------------------------------------------------------------------#
#

Bass tab for:
"Faith" by Luscious Jackson
Off "Fever In Fever Out"
Tabbed by Marieeve Bonnet (oceanid76@aol.com) so send corrections there

(pattern #1) X6

G--------------------
D--6--------6--------
A----6-4-2----6-4----
E-----------------4--

i cry for the love in your eyes
i try to let you be free

(pattern #2) X8

G-----------
D-----------
A--6-2-0-7--
E-----------

if you're blue
don't let it worry you
you'll make it through
and if you don't believe me

(pattern #3) X2

G---------------------------------------------------------
D---------------------------------------------------------
A--6-6-6-6s-11-11-11-11-11-11-11-11-11-11-11-11-11-11-11--
E---------------------------------------------------------

faith will come humbly down
fear will come tumbling down

(pattern #1) X6

cynics may fill the books
critics may give you looks

(pattern #2) X4

but i'll stand by you 'til you die
and i'll be wise in the afterlife

(no bass)

faith will come humbly down
fear will come tumbling down

(pattern #3) X4

faith will come humbly down
fear will come tumbling down
faith will come humbly down
fear will come tumbling down

(pattern #1) only half